La web citrica
SECCIONES  
  La web cítrica
  Los Rápidos
  Los Burros
  Cuando la Pobreza y Enemigos de lo Ajeno (Versiones Originales 85-86)
  El Último De La Fila
  Manolo García
  Hemeroteca
  Acordes
  => A quien tanto he querido
  => Carbón y Ramas Secas
  => Como quien da un refresco
  => Con los hombres azules
  => Conflicto armado
  => En los desiertos por habitar
  => Éramos
  => Malva
  => Mientras observo al afilador
  => Niña Candela
  => Nunca el tiempo es...
  => Pájaros de Barro
  => Para que no se duerman mis
  => En una playa calma
  => Por respirar
  => Prefiero el trapecio
  => Prendí la flor
  => Rosa de Alejandría
  => Si te vienes conmigo
  => Sin que sepas de mi
  => Sobre el oscuro abismo
  => Sobre tus pasos
  => Sólo amar
  => Somos levedad
  => Suave suave
  => Vendrán días
  => Zapatero
  => A San Fernando...
  => Como un burro amarrado
  => Son cuatro días
  => Insurrección
  => Mar antiguo
  => Sin llaves
  => Aviones Plateados
  => Vestido de hombre rana
  => Lejos de las leyes de los hombres
  => Llanto de Pasión
  => A veces se enciende
  => Pedir tu mano
  => La piedra redonda
  => ¡Qué bien huelen los pinos!
  => Uva de la vieja parra
  => Astronomia-Razonable
  => Canta por mi
  => Cosas que-pasan
  => Cuando el mar te tenga
  => Del templo a la taberna
  => Dios de la lluvia
  => Disneylandia
  => El faro del fin del mundo
  => El loco de la calle
  => En los árboles
  => El himno de los cazadores de vacas
  => Huesos
  => Los angeles no tienen helices
  => Mi novia se llamaba Ramón
  => Mi patria en mis zapatos
  => Moscas aulladoras, Perros silenciosos
  => Piedra sobre piedra
  => Portugal
  => Querida Milagros
  => Remando sobre el polvo
  => Sara
  => Soy un accidente
  => Todo el dia llovió
  => Ya no danzo al son de los tambores
  => Contigo me Quedaría
  => La puerta abierta (Carmen García)
  => Luz de luna
  => No estes triste
  => Saldremos a la lluvia -
  La caja de galletas
  Rarezas
  Fotografías
  Caricaturas
  Descargas
  Algunos Objetos Merchandising
  Encuesta
  ...pongamos que es un Blog
  Enlaces
  Contacto
  Banners
  Agradecimientos
  Contador de visitas
Contador de Visitas 141773 visitantes Sumo y Resto
Del templo a la taberna

Esta cancion es sencilla si se le coge la práctica.
Mas o menos se divide la cancion en 3 partes, lo que sería
la intro (que luego se repite), otra parte que serian los acordes
y por ultimo la parte de punteado. La canción la recomiendo tocar
con la guitarra eléctrica con algun efecto de distorsión.

Primero veamos como se toca cada parte y luego las situaremos en la canción

Parte A (la del inicio y la del 'correr y atravesar.....')

E-----------------------------------3----3-------3---------------------------
B----------------------------------------------------------------------------
G-----7---7-7---7-----10----10---------5----5--5--------------5-------5------
D---7---7-----7----10----10----10-----------------------5--7----5--7---------
A---------------------------------------------------0-5----------------------
E----------------------------------------------------------------------------


E-------------------------------------------3------------3-------------------
B----------------------------------------------------------------------------
G-----7---7------------10------10------4-5------4--4-5-----------------------
D---7---7----7-----10------10------------------------------------------------
A----------------------------------------------------------------------------
E----------------------------------------------------------------------------


Parte B (la que correspondería a los acordes de: 'No queda nada aqui, por hacer...'

Acorde 1: X57XXX
Acorde 2: X35XXX
Acorde 3: X02XXX
Acorde 4: 35XXXX

Acorde 5 final (punteando):  E----------------------------------
                             B----------------------------------
                             G----------------------------------
                             D------2--2--0--2------------------
                             A------0--0--0--0------------------
                             E---3--------3--3------------------


Parte C (la de: con la piel quemada.. por el sol....El salitre y el amor!)

E--------------------------------------------------------------------------------------------
B--------------------------------------------------------------------------------------------
G----5)7--6---------------------5)7--6----6)9----7--6----------5)7-6---------------7-6---5--7
D------------7---------5--5----------------------------7--------------7--5)7)5-----------5--7
A--0-------------5)7---------0------------------------------0-------------------0------------
E--------------------------------------------------------------------------------------------



Ahora veamos donde los ponemos en la canción. No os preocupeis si no sabeis
el ritmo de las tablaturas de arriba, cuando veais en que parte de la canción van
los reconocereis rápidamente.




(Intro con acordes simples: Rem, Rem, Do, Sol)


(Parte A dos veces)


(Parte B):

1         2             3        4 
No queda nada aquí por hacer... nada;
1         2          4            5
ni nada que ofrecer que no tengas ya.
1           2          3         4
En el columpio azul de tus besos metálicos
1          2         4           5
me quiero abandonar como un animal.

(Pacte C):

Con la piel quemada por el sol
el salitre y el amor.

(Parte A 2 veces):

Correr y atravesar mil vidas grises, gente gris.
Correr y abandonarlo todo.
Correr y delirar siempre a tu lado dulce amor.
Llegar hasta el final de ti.

(Aqui vendria un pedazo de punteo, si lo sacais avisarme! jajaaj)

(Parte C)
Con la mente turbia, los sentidos afilados,
medio locos.

(Parte C)
Del templo a la taberna por entre los viñedos
tu nombre gritaré.

(Parte B: ojo! Solo un acorde!)
Desde la selva azul de tu pelo enredado
                                              5
hasta el vapor de miel de tu alma al despertar.

(Parte A)
Correr y delirar siempre a tu lado dulce amor.
Correr y abandonarlo todo.

Correr y atravesar mil vidas grises, gente gris.
Llegar hasta el final de todo.

SECCIONES  
  Bebamos generoso.
Baco zozobras quita.
(HORACIO)









 
Publicidad  
   
Lejos, muy lejos  
  en silencio...  
RAFALIN / RAFAIKKI  
 


 
 
 

 
=> ¿Desea una página web gratis? Pues, haz clic aquí! <=